Make your own free website on Tripod.com

Shark

My Humps

Home
Shark Club
Shop
About Me
Fish
Photo Album
The rest
Interesting links
Contact Me
Sharks

Normal Tuning e-b-g-d-a-e

I put the times and the beats on the measures



|---------------| |---------------| |---------------|
|---------------| |3-----5---6---5| |----3----------|
|3-------3------| |---------------| |---------------|
|3-------3------| |---------------| |---------------|
|1-------1------| |---------------| |---------------|
|---------------| |---------------| |---------------|
1 & 2 & 3 & 4 & 1 & 2 & 3 & 4 & 1 & 2 & 3 & 4 &
:24 :28 :33

|---------------| |---------------|
|3-----5---6---5| |----3-------3--|
|---------------| |------------3--|
|---------------| |------------1--|
|---------------| |---------------|
|---------------| |---------------|
1 & 2 & 3 & 4 & 1 & 2 & 3 & 4 &
:40

|---------------| |---------------|
|3-----5---6---5| |----3-------3--|
|---------------| |------------3--|
|---------------| |------------1--|
|---------------| |---------------|
|---------------| |---------------|
1 & 2 & 3 & 4 & 1 & 2 & 3 & 4 &
:48

|---------------| |---------------|
|---------------| |---------------|
|---------------| |---------------|
|0-----2---3---2| |----0----------|
|---------------| |---------------|
|---------------| |---------------|
1 & 2 & 3 & 4 & 1 & 2 & 3 & 4 &
:55

|---------------| |---------------|
|3-----5---6---5| |----3----------|
|---------------| |---------------|
|---------------| |---------------|
|---------------| |---------------|
|---------------| |---------------|
1 & 2 & 3 & 4 & 1 & 2 & 3 & 4 &
1:11

|---------------| |---------------|
|3-----5---6---5| |----3----------|
|---------------| |---------------|
|---------------| |---------------|
|---------------| |---------------|
|---------------| |---------------|
1 & 2 & 3 & 4 & 1 & 2 & 3 & 4 &
1:19

|---------------| |---------------|
|---------------| |---------------|
|---------------| |---------------|
|0-----2---3---2| |----0----------|
|---------------| |---------------|
|---------------| |---------------|
1 & 2 & 3 & 4 & 1 & 2 & 3 & 4 &
1:27

|---------------|
|---------------|
|3-4-5-3--------|
|3-4-5-3--------|
|1-2-3-1--------|
|---------------|
1 & 2 & 3 & 4 &
1:28 ^same time

|---------------| |---------------|
|3-----5---6---5| |----3----------|
|---------------| |---------------|
|---------------| |---------------|
|---------------| |---------------|
|---------------| |---------------|
1 & 2 & 3 & 4 & 1 & 2 & 3 & 4 &
1:34 soft

|---------------|
|---------------|
|3-4-5-3--------|
|3-4-5-3--------|
|1-2-3-1--------|
|---------------|
1 & 2 & 3 & 4 &
1:36 <same time

|---------------| |---------------|
|3-----5---6---5| |----3----------|
|---------------| |---------------|
|---------------| |---------------|
|---------------| |---------------|
|---------------| |---------------|
1 & 2 & 3 & 4 & 1 & 2 & 3 & 4 &
1:41 loud again

|---------------| |---------------|
|---------------| |---------------|
|---------------| |---------------|
|0-----2---3---2| |----0----------|
|---------------| |---------------|
|---------------| |---------------|
1 & 2 & 3 & 4 & 1 & 2 & 3 & 4 &
2:05

|---------------| |---------------|
|3-----5---6---5| |----3----------|
|---------------| |---------------|
|---------------| |---------------|
|---------------| |---------------|
|---------------| |---------------|
1 & 2 & 3 & 4 & 1 & 2 & 3 & 4 &
2:13 soft

|---------------| |---------------|
|---------------| |---------------|
|----------3-3--| |3---------3--33|
|0-----2---3-3-2| |3--0------3--33|
|----------1-1--| |1---------1--11|
|---------------| |---------------|
1 & 2 & 3 & 4 & 1 & 2 & 3 & 4 &
2:20 loud again

|---------------| |---------------|
|3-----5---6---5| |----3----------|
|---------------| |---------------|
|---------------| |---------------|
|---------------| |---------------|
|---------------| |---------------|
1 & 2 & 3 & 4 & 1 & 2 & 3 & 4 &
2:28

|---------------| |---------------|
|---------------| |---------------|
|---------------| |---------------|
|0-----2---3---2| |----0----------|
|---------------| |---------------|
|---------------| |---------------|
1 & 2 & 3 & 4 & 1 & 2 & 3 & 4 &
2:36 soft

|---------------| |---------------|
|3-----5---6---5| |----3----------|
|---------------| |---------------|
|---------------| |---------------|
|---------------| |---------------|
|---------------| |---------------|
1 & 2 & 3 & 4 & 1 & 2 & 3 & 4 &
2:43 soft

|-------------------| |------------------|
|---3-----5---6---5-| |---3--------------|
|-------------------| |------------------|
|---0-----2---3---2-| |---0--------------|
|-------------------| |------------------|
|(-)2-----0---1---0-| |(-)2--------------|
1 & 2 & 3 & 4 & 1 & 2 & 3 & 4 &
2:52 louder

|-------------------| |------------------|
|---3-----5---6---5-| |---3--------------|
|-------------------| |------------------|
|---0-----2---3---2-| |---0--------------|
|-------------------| |------------------|
|(-)2-----0---1---0-| |(-)2--------------|
1 & 2 & 3 & 4 & 1 & 2 & 3 & 4 &
2:59 still louder

|---------------| |--------------|
|3-----5---6---5| |----3---------|
|---------------| |--------------|
|0-----2---3---2| |----0---------|
|---------------| |--------------|
|---------------| |--------------|
1 & 2 & 3 & 4 & 1 & 2 & 3 & 4 &
3:07 really soft again

|---------------| |---------------|
|3-----5---6---5| |----3----------|
|---------------| |---------------|
|---------------| |---------------|
|---------------| |---------------|
|---------------| |---------------|
1 & 2 & 3 & 4 & 1 & 2 & 3 & 4 &
3:15 loud

|---------------| |---------------|
|---------------| |---------------|
|---------------| |---------------|
|0-----2---3---2| |----0----------|
|---------------| |---------------|
|---------------| |---------------|
1 & 2 & 3 & 4 & 1 & 2 & 3 & 4 &
3:22 soft

|10----------------18----------| |----10---------|
|-----------17--------------17-| |---------------|
|------------------------------| |---------------|
|------------------------------| |---------------|
|------------------------------| |---------------|
|------------------------------| |---------------|
1 & 2 & 3 & 4 & 1 & 2 & 3 & 4 &
3:30

|-------------------| |------------------|
|---3-----5---6---5-| |---3--------------|
|-------------------| |------------------|
|---0-----2---3---2-| |---0--------------|
|-------------------| |------------------|
|(-)2-----0---1---0-| |(-)2--------------|
1 & 2 & 3 & 4 & 1 & 2 & 3 & 4 &
3:53 loud





|-------------------| |------------------|
|---3-----5---6---5-| |---3--------------|
|-------------------| |------------------|
|---0-----2---3---2-| |---0--------------|
|-------------------| |------------------|
|(-)2-----0---1---0-| |(-)2--------------|
1 & 2 & 3 & 4 & 1 & 2 & 3 & 4 &
4:01 loud




vote for this site

Member of  AquaBanners.com